AnasayfaTakvimSSSAramaKayıt OlGiriş yap

Paylaş | 
 

 Uğraşan varsa gitarla baksın hoşuna gider

Önceki başlık Sonraki başlık Aşağa gitmek 
YazarMesaj
metal jant gökhan
Acemi Üye
Acemi Üye
avatar

Erkek
Mesaj Sayısı : 49
Yaş : 27
Nerden : DÜNYA
Rep Puanı :
path="" title="" permalink="">


Puan : 0
Kayıt tarihi : 06/03/08

MesajKonu: Uğraşan varsa gitarla baksın hoşuna gider   Cuma Mart 21, 2008 4:17 pm

DÜŞ SOKAĞI SAKİNLERİ:SEVDAN BİR ATEŞ


İntro;(solo guitar)
E:|-5-5-0-0-1-----------|-3-3-----------------|
B:|---------------------|-----3-5-6-6-1-3--4--|
G:|---------------------|---------------------|
D:|---------------------|---------------------|
A:|---------------------|---------------------|
E:|---------------------|---------------------|


E:|-3-3-----------------|---------------------|
B:|-----1-3-------------|---------------------|
G:|---------------------|---------------------|
D:|---------------------|---------------------|
A:|---------------------|---------------------|
E:|---------------------|---------------------|



DUMAN-YANIBAŞIMDAN



B||----------------------|-------------------|----------------------|-------------------|----------------------|
G||----------------------|-------------------|----------------------|-------------------|----------------------|
D||----------------------|-------------------|----------------------|-------------------|----------------------|
A||------------5----3----|-------------------|------------5----3----|-------------------|------------5----3----|
E||--3----6--------------|------3------------|--3----6--------------|------3------------|--3----6--------------|


-------------------|----------------------|-------------------|----------------------|------------3-||
-------------------|----------------------|-------------------|----------------------|----------3---||
-------------------|----------------------|-------------------|----------------------|--------3-----||
-------------------|----------------------|-------------------|----------------------|------5-------||
-------------------|----------------------|------3------------|--6----5----3---------|----5---------||
------3------------|--3----6----3----5----|-------------------|-----------------5----|--3-----------||


The Godfather



E:---------------------------------------------------------|
B:-------1--0-----1-----0--------------------1--0-----1----|
G:----2--------2-----2-----2-----0--------2--------2-----2-|
D:-2--------------------------3-----2--2-------------------|
A:---------------------------------------------------------|
E:---------------------------------------------------------|


E:---------------------------------------------------------|
B:-0------------------------0------------------------------|
G:----2------------------2-----------1--2--------0---------|
D:-------3--2--0---0--3--------0--3-----------------3--2---|
A:-----------------------------------------0--3------------|
E:---------------------------------------------------------|

E:----------------------|
B:----------------------|
G:-0--------------------|
D:----3--3--2-----------|
A:-------------2--3--0--|
E:----------------------|





THE GODFATHER (İNTRO)

B--3--2-3-4--3-3----3--2-3-4--3-3----3--2-3-6--3-2--5-3
G----------------3----------------2----------------------3-2-3-7--3-2~~~



BLACK EYED PEAS-PUMP İT İNTRO

------------------------------------------------------------
------------------------------------------------------------
------------------------------------------------------------
2-3-6-7-9-10-12-10-9(uzun)*2----10-9-10-9-7-9-7-9-7-6(uzun)
-----------------------------------------------------------
-----------------------------------------------------------


------------------------------------------------------------
------------------------------------------------------------
------------------------------------------------------------
9-7-9-7-6-7-6-7-6-3-2(uzun)---------------------------------
------------------------------------------------------------
------------------------------------------------------------
Sayfa başına dön Aşağa gitmek
Kullanıcı profilini gör
 
Uğraşan varsa gitarla baksın hoşuna gider
Önceki başlık Sonraki başlık Sayfa başına dön 
1 sayfadaki 1 sayfası
 Similar topics
-
» Gir Konuya Resim Var Kodu VArsa Söylermisiniz !!!
» [Lütfen yetkililer 1 baksın]forum siteme bir yönlendirme yüzünden giremiyorum..
» siteyi sola alıp sağa reklam herkez baksın
» Resimleri Pdf Formatına çevirmesini bilenler baksın
» jailbreak garanti dışı bırakmaz neden mi?

Bu forumun müsaadesi var:Bu forumdaki mesajlara cevap veremezsiniz
 :: KÜLTÜR :: Müzik :: Gitar Akor ve Tab-
Buraya geçin: